IndexĐăng kýĐăng Nhập
Đăng Nhập
Tên truy cập:
Mật khẩu:
Đăng nhập tự động mỗi khi truy cập: 
:: Quên mật khẩu
December 2016
MonTueWedThuFriSatSun
   1234
567891011
12131415161718
19202122232425
262728293031 
CalendarCalendar
Top posters
Admin (290)
 
0ut-of-tune (215)
 
NAM-DE (113)
 
hang d0c (105)
 
backdoor (95)
 
donalds_vn (55)
 
eyamsadge_ (47)
 
mummim (47)
 
tuyet_dong (21)
 
xitrum (20)
 
Statistics
Diễn Đàn hiện có 465 thành viên
Chúng ta cùng chào mừng thành viên mới đăng ký: reuphong

Tổng số bài viết đã gửi vào diễn đàn là 1082 in 651 subjects

Share | 
 

 2 become 1

Xem chủ đề cũ hơn Xem chủ đề mới hơn Go down 
Tác giảThông điệp
0ut-of-tune
Phat Trien Dien Dan
Phat Trien Dien Dan


Posts : 215
Join date : 18/12/2010
Status : ^^


Bài gửiTiêu đề: 2 become 1   Sun Mar 27, 2011 9:40 pm

Bài hay muh chord khó quá..ai rảnh viết lại chord bài ney cho em dzới 03

Key: F#

Tuning: Standard EADGBe

Chords used:
Ebm - x68876
C#/F - 143xxx
F# - 244322
G#m - 466444
Bbm - x13321
B - x24442
C# - x46664
F# - 244322
A - x02220
E - 022100


Intro: Ebm-C#/F-F#-G#m-Ebm-C#/F-F#-C#

Violin:
Ebm C#/F F# G#m
e|-13--|-9----|-6--|-----|
B|-----|------|----|-2---|
G|-----|------|----|-----|
D|-----|------|----|-----|
A|-----|------|----|-----|
E|-----|------|----|-----|

Ebm C#/F F# C#
e|-----9-|------|-------6-|-7-9-11-13-|
B|-6-7---|-9----|-6-7-9---|-----------|
G|-------|------|---------|-----------|
D|-------|------|---------|-----------|
A|-------|------|---------|-----------|
E|-------|------|---------|-----------|


Verse 1:
Ebm C#/F
Candle light and soul forever
F# G#m
a dream of you and me together
Ebm C#/F F# C#
Say you believe it say you believe it
Ebm C#/F
Free your mind from doubt and danger
F# G#m
Be for real don't be a stranger
Ebm C#/F F# C#
We can achieve it we can achieve it


Refrain 1:
B
Come a little bit
Bbm G#m
closer baby get
C#
it on get it on
B
Cause tonight is
Bbm
the night when
G#m C#
two become one


Guitar 2: in "coz tonight" same with refrain 2 and 3
e|-----9--9-----9----|
B|-6h7------7-7----9-|
G|-------------------|
D|-------------------|
A|-------------------|
E|-------------------|


Chorus 1:
F#
I need some love like
C# B
I never needed love before
C#
(wanna make love to ya baby)
F#
I had a little love
C# B
now I'm back for more
C#
(wanna make love to ya baby)
E F#
Set your spirit free
A B F#
it's the only way to be


Verse 2:
Ebm
Silly games that
C#/F
you were playing
F#
Empty words we
G#m
both were saying
Ebm C#/F
Let's work it out boy
F# C#
let's work it out boy
Ebm
Any deal that
C#/F
we endeavour
F#
Boys and girls
G#m
are good together
Ebm C#/F
Take it or leave it
F# C#
take it or leave it


Refrain 2:
B
Are you as good as
Bbm G#m
I remember baby get
C#
it on get it on
B
Cause tonight is
Bbm
the night when
G#m C#
two become one


(Repeat Chorus 1)


Interlude: Ebm-C#-B-- x2

Guitar 2:
F#
E|-6h7-9-7-6--|
B|---------------------|
G|---------------------|
D|---------------------|
A|---------------------|
E|---------------------|

Ebm C# B
e|-----|------------|--------------|
B|-7---|-6h7p6------|--------------|
G|-----|-------8--6-|-8---6----6---|
D|-----|------------|-------9----8-|
A|-----|------------|--------------|
E|-----|------------|--------------|

Ebm C# B
e|------|------|---------------------------9h11-|
B|-7--7-|-6--6-|--------------------110h11------|
G|------|------|-8--8---8-8-8h10-11-------------|
D|------|------|--------------------------------|
A|------|------|--------------------------------|
E|------|------|--------------------------------|


Refrain 3:
B Bbm
Be a little bit wiser baby
G#m C#
put it on put it on
B
Cause tonight is the
Bbm G#m C#
night when two become one


Chorus 2:
F#
I need some love like
C# B
I never needed love before
C#
(wanna make love to ya baby)
F#
I had a little love
C# B
now I'm back for more
C#
(wanna make love to ya baby)
F#
I need some love like
C# B
I never needed love before
C#
(wanna make love to ya baby)
F#
I had a little love
C# B
now I'm back for more
C#
(wanna make love to ya baby)
E F#
Set your spirit free
A B F#
it's the only way to be


Outro:

It's the only way to be

It's the only way to be

Về Đầu Trang Go down
0ut-of-tune
Phat Trien Dien Dan
Phat Trien Dien Dan


Posts : 215
Join date : 18/12/2010
Status : ^^


Bài gửiTiêu đề: Re: 2 become 1   Wed Mar 30, 2011 7:56 pm

Cán bộ công nhân viên forum đâu hết rùi 29
Tự đề xuất >> tự giải quyết, tủi wá 03




Key D: Capo fím 4

Intro: Bm-A/C#-D-Em-Bm-A/C#-D-A

Violin:
Bm A/C# D Em
e|-13--|-9----|-6--|-----|
B|-----|------|----|-2---|
G|-----|------|----|-----|
D|-----|------|----|-----|
A|-----|------|----|-----|
E|-----|------|----|-----|

Bm A/C# D A
e|-----9-|------|-------6-|-7-9-11-13-|
B|-6-7---|-9----|-6-7-9---|-----------|
G|-------|------|---------|-----------|
D|-------|------|---------|-----------|
A|-------|------|---------|-----------|
E|-------|------|---------|-----------|


Verse 1:
Bm A/C#
Candle light and soul forever
D Em
a dream of you and me together
Bm A/C# D A
Say you believe it say you believe it
Bm A/C#
Free your mind from doubt and danger
D Em
Be for real don't be a stranger
Bm A/C# D A
We can achieve it we can achieve it


Refrain 1:
G
Come a little bit
F#m Em
closer baby get
A
it on get it on
G
Cause tonight is
F#m
the night when
Em A
two become one


Guitar 2: in "coz tonight" same with refrain 2 and 3
e|-----9--9-----9----|
B|-6h7------7-7----9-|
G|-------------------|
D|-------------------|
A|-------------------|
E|-------------------|


Chorus 1:
D
I need some love like
A G
I never needed love before
A
(wanna make love to ya baby)
D
I had a little love
A G
now I'm back for more
A
(wanna make love to ya baby)
C D
Set your spirit free
F G D
it's the only way to be


Verse 2:
Bm
Silly games that
A/C#
you were playing
D
Empty words we
Em
both were saying
Bm A/C#
Let's work it out boy
D A
let's work it out boy
Bm
Any deal that
A/C#
we endeavour
D
Boys and girls
Em
are good together
Bm A/C#
Take it or leave it
D A
take it or leave it


Refrain 2:
G
Are you as good as
F#m Em
I remember baby get
A
it on get it on
G
Cause tonight is
F#m
the night when
Em A
two become one


(Repeat Chorus 1)


Interlude: Bm-A-G-- x2

Guitar 2:
D
E|-6h7-9-7-6--|
B|---------------------|
G|---------------------|
D|---------------------|
A|---------------------|
E|---------------------|

Bm A G
e|-----|------------|--------------|
B|-7---|-6h7p6------|--------------|
G|-----|-------8--6-|-8---6----6---|
D|-----|------------|-------9----8-|
A|-----|------------|--------------|
E|-----|------------|--------------|

Bm A G
e|------|------|---------------------------9h11-|
B|-7--7-|-6--6-|--------------------110h11------|
G|------|------|-8--8---8-8-8h10-11-------------|
D|------|------|--------------------------------|
A|------|------|--------------------------------|
E|------|------|--------------------------------|


Refrain 3:
G F#m
Be a little bit wiser baby
Em A
put it on put it on
G
Cause tonight is the
F#m Em A
night when two become one


Chorus 2:
D
I need some love like
A G
I never needed love before
A
(wanna make love to ya baby)
D
I had a little love
A G
now I'm back for more
A
(wanna make love to ya baby)
D
I need some love like
A G
I never needed love before
A
(wanna make love to ya baby)
D
I had a little love
A G
now I'm back for more
A
(wanna make love to ya baby)
C D
Set your spirit free
F G D
it's the only way to be


Outro:

It's the only way to be

It's the only way to be


Về Đầu Trang Go down
donalds_vn
Phat Trien Dien Dan
Phat Trien Dien Dan


Posts : 55
Join date : 18/12/2010
Age : 56
Đến từ : Lào
Status : đang đi trên đường, bỗng thấy bất thường. úp mặt vô tường, lại thấy bình thường 8-)


Bài gửiTiêu đề: Re: 2 become 1   Wed Mar 30, 2011 10:15 pm

131e muốn giúp cha mà tài hèn sức mọn onion17

___________________________________________________________________________________

17r đang đi trên đường, onion33 bỗng thấy bất thường. úp mặt vô tường onion17 , lại thấy bình thường 48de
Về Đầu Trang Go down
0ut-of-tune
Phat Trien Dien Dan
Phat Trien Dien Dan


Posts : 215
Join date : 18/12/2010
Status : ^^


Bài gửiTiêu đề: Re: 2 become 1   Thu Mar 31, 2011 7:53 am

thx xơ anyway crying
Về Đầu Trang Go down
hang d0c
Admin
Admin


Posts : 105
Join date : 18/12/2010
Status : Thèm xem webcam


Bài gửiTiêu đề: Re: 2 become 1   Thu Apr 14, 2011 11:26 am

processing bé chuyen về Am capo khung 6 la` ngon cơm

___________________________________________________________________________________

I\'m so rich, I wish I had a dime for every dime I have
Về Đầu Trang Go down
0ut-of-tune
Phat Trien Dien Dan
Phat Trien Dien Dan


Posts : 215
Join date : 18/12/2010
Status : ^^


Bài gửiTiêu đề: Re: 2 become 1   Fri Apr 15, 2011 1:38 pm

thanks sis , để em chuyển thử 38dd
Về Đầu Trang Go down
hang d0c
Admin
Admin


Posts : 105
Join date : 18/12/2010
Status : Thèm xem webcam


Bài gửiTiêu đề: Re: 2 become 1   Tue Apr 26, 2011 9:12 am

bé check cái music sheet của anh ND post bên kia 17r

___________________________________________________________________________________

I\'m so rich, I wish I had a dime for every dime I have
Về Đầu Trang Go down
0ut-of-tune
Phat Trien Dien Dan
Phat Trien Dien Dan


Posts : 215
Join date : 18/12/2010
Status : ^^


Bài gửiTiêu đề: Re: 2 become 1   Tue Apr 26, 2011 9:25 am

thx sis, em chuyển rùi muh chưa post, key G cao hơn ver gốc 1/2 tone thì fải, cao lém


Key G
Intro: Em-D/F#-G-Am-Em-D/F#-G-D

Verse 1:
Em D/F#
Candle light and soul forever
G Am
a dream of you and me together
Em D/F# G D/F#
Say you believe it say you believe it
Em D/F#
Free your mind from doubt and danger
G Am
Be for real don't be a stranger
Em D/F# G D
We can achieve it we can achieve it


Refrain 1:
C
Come a little bit
Bm Am
closer baby get
D
it on get it on
C
Cause tonight is
Bm
the night when
Am D
two become one


Chorus 1:
G
I need some love like
D C
I never needed love before
D
(wanna make love to ya baby)
G
I had a little love
D C
now I'm back for more
D
(wanna make love to ya baby)
F G
Set your spirit free
Bb C G
it's the only way to be


Verse 2:
Em
Silly games that
D/F#
you were playing
G
Empty words we
Am
both were saying
Em D/F#
Let's work it out boy
G D
let's work it out boy
Em
Any deal that
D/F#
we endeavour
G
Boys and girls
Am
are good together
Em D/F#
Take it or leave it
G D
take it or leave it


Refrain 2:
C
Are you as good as
Bm Am
I remember baby get
D
it on get it on
C
Cause tonight is
Bm
the night when
Am D
two become one


(Repeat Chorus 1)


Interlude: Em-D-C-- x2



Refrain 3:
C Bm
Be a little bit wiser baby
Am D
put it on put it on
C
Cause tonight is the
Bm Am D
night when two become one


Chorus 2:
G
I need some love like
D C
I never needed love before
D
(wanna make love to ya baby)
G
I had a little love
D C
now I'm back for more
D
(wanna make love to ya baby)
G
I need some love like
D C
I never needed love before
D
(wanna make love to ya baby)
G
I had a little love
D C
now I'm back for more
D
(wanna make love to ya baby)
F G
Set your spirit free
Bb C G
it's the only way to be


Outro:

It's the only way to be

It's the only way to be

Về Đầu Trang Go down
Sponsored content





Bài gửiTiêu đề: Re: 2 become 1   Today at 5:23 am

Về Đầu Trang Go down
 

2 become 1

Xem chủ đề cũ hơn Xem chủ đề mới hơn Về Đầu Trang 
Trang 1 trong tổng số 1 trang

Permissions in this forum:Bạn không có quyền trả lời bài viết
 :: Guitar Chords And Tabs :: Chord Yêu Cầu-
Chuyển đến 
Create a forum on Forumotion | © phpBB | Free forum support | Liên hệ | Report an abuse | www.sosblogs.com